ISO-10303-21;
HEADER;
FILE_DESCRIPTION (( 'STEP AP203' ),
    '1' );
FILE_NAME ('Q-QZWP-R4-25.4-852-M.STEP',
    '2020-12-23T01:28:25',
    ( '' ),
    ( '' ),
    'SwSTEP 2.0',
    'SolidWorks 2020',
    '' );
FILE_SCHEMA (( 'CONFIG_CONTROL_DESIGN' ));
ENDSEC;

DATA;
#1 = CALENDAR_DATE ( 2020, 23, 12 ) ;
#2 = SECURITY_CLASSIFICATION ( '', '', #78 ) ;
#3 = PERSON_AND_ORGANIZATION ( #93, #139 ) ;
#4 = AXIS2_PLACEMENT_3D ( 'NONE', #23, #103, #66 ) ;
#5 = PERSON_AND_ORGANIZATION ( #93, #139 ) ;
#6 = CALENDAR_DATE ( 2020, 23, 12 ) ;
#7 =( NAMED_UNIT ( * ) SI_UNIT ( $, .STERADIAN. ) SOLID_ANGLE_UNIT ( ) );
#8 = CIRCLE ( 'NONE', #128, 15.00000000000000000 ) ;
#9 = UNCERTAINTY_MEASURE_WITH_UNIT (LENGTH_MEASURE( 1.000000000000000082E-05 ), #145, 'distance_accuracy_value', 'NONE');
#10 = DATE_AND_TIME ( #83, #106 ) ;
#11 = EDGE_CURVE ( 'NONE', #172, #88, #27, .T. ) ;
#12 = DIRECTION ( 'NONE',  ( -1.000000000000000000, -0.000000000000000000, -0.000000000000000000 ) ) ;
#13 = APPLICATION_CONTEXT ( 'configuration controlled 3d designs of mechanical parts and assemblies' ) ;
#14 = FACE_OUTER_BOUND ( 'NONE', #29, .T. ) ;
#15 = EDGE_LOOP ( 'NONE', ( #107, #119 ) ) ;
#16 = MANIFOLD_SOLID_BREP ( 'Ðý×', #54 ) ;
#17 = ORIENTED_EDGE ( 'NONE', *, *, #11, .F. ) ;
#18 = AXIS2_PLACEMENT_3D ( 'NONE', #84, #41, #127 ) ;
#19 = APPROVAL_ROLE ( '' ) ;
#20 = CC_DESIGN_PERSON_AND_ORGANIZATION_ASSIGNMENT ( #5, #65, ( #2 ) ) ;
#21 = DATE_AND_TIME ( #135, #36 ) ;
#22 = PERSON_AND_ORGANIZATION_ROLE ( 'design_supplier' ) ;
#23 = CARTESIAN_POINT ( 'NONE',  ( -1.614212418857619014, 0.000000000000000000, 0.000000000000000000 ) ) ;
#24 = COORDINATED_UNIVERSAL_TIME_OFFSET ( 8, 0, .AHEAD. ) ;
#25 = DATE_AND_TIME ( #1, #62 ) ;
#26 = CARTESIAN_POINT ( 'NONE',  ( -3.000000000000000000, 1.836970198721029589E-15, -15.00000000000000000 ) ) ;
#27 = LINE ( 'NONE', #99, #35 ) ;
#28 = CARTESIAN_POINT ( 'NONE',  ( 3.000000000000000000, 0.000000000000000000, 0.000000000000000000 ) ) ;
#29 = EDGE_LOOP ( 'NONE', ( #17, #46, #56, #168 ) ) ;
#30 = LOCAL_TIME ( 9, 28, 25.00000000000000000, #148 ) ;
#31 = PLANE ( 'NONE',  #39 ) ;
#32 = CARTESIAN_POINT ( 'NONE',  ( 3.000000000000000000, 0.000000000000000000, 15.00000000000000000 ) ) ;
#33 = CC_DESIGN_DATE_AND_TIME_ASSIGNMENT ( #21, #137, ( #120 ) ) ;
#34 = CARTESIAN_POINT ( 'NONE',  ( 3.000000000000000000, 1.836970198721029589E-15, -15.00000000000000000 ) ) ;
#35 = VECTOR ( 'NONE', #97, 1000.000000000000000 ) ;
#36 = LOCAL_TIME ( 9, 28, 25.00000000000000000, #123 ) ;
#37 = CC_DESIGN_PERSON_AND_ORGANIZATION_ASSIGNMENT ( #166, #22, ( #129 ) ) ;
#38 = DIRECTION ( 'NONE',  ( 0.000000000000000000, 0.000000000000000000, 1.000000000000000000 ) ) ;
#39 = AXIS2_PLACEMENT_3D ( 'NONE', #48, #110, #149 ) ;
#40 = PERSON_AND_ORGANIZATION ( #93, #139 ) ;
#41 = DIRECTION ( 'NONE',  ( -1.000000000000000000, -0.000000000000000000, -0.000000000000000000 ) ) ;
#42 = DIRECTION ( 'NONE',  ( 0.000000000000000000, 0.000000000000000000, 1.000000000000000000 ) ) ;
#43 = CC_DESIGN_APPROVAL ( #157, ( #2 ) ) ;
#44 = CIRCLE ( 'NONE', #138, 15.00000000000000000 ) ;
#45 = CC_DESIGN_PERSON_AND_ORGANIZATION_ASSIGNMENT ( #163, #77, ( #120 ) ) ;
#46 = ORIENTED_EDGE ( 'NONE', *, *, #118, .T. ) ;
#47 = EDGE_CURVE ( 'NONE', #174, #86, #71, .T. ) ;
#48 = CARTESIAN_POINT ( 'NONE',  ( 3.000000000000000888, 12.69999999999999929, 0.000000000000000000 ) ) ;
#49 = CARTESIAN_POINT ( 'NONE',  ( 0.000000000000000000, 0.000000000000000000, 0.000000000000000000 ) ) ;
#50 = PERSON_AND_ORGANIZATION ( #93, #139 ) ;
#51 = COORDINATED_UNIVERSAL_TIME_OFFSET ( 8, 0, .AHEAD. ) ;
#52 = MECHANICAL_CONTEXT ( 'NONE', #13, 'mechanical' ) ;
#53 = ORIENTED_EDGE ( 'NONE', *, *, #11, .T. ) ;
#54 = CLOSED_SHELL ( 'NONE', ( #161, #155, #144, #76 ) ) ;
#55 = CYLINDRICAL_SURFACE ( 'NONE', #111, 15.00000000000000000 ) ;
#56 = ORIENTED_EDGE ( 'NONE', *, *, #47, .T. ) ;
#57 = ORIENTED_EDGE ( 'NONE', *, *, #61, .F. ) ;
#58 = VECTOR ( 'NONE', #117, 1000.000000000000000 ) ;
#59 = FACE_OUTER_BOUND ( 'NONE', #87, .T. ) ;
#60 = APPROVAL_PERSON_ORGANIZATION ( #92, #69, #114 ) ;
#61 = EDGE_CURVE ( 'NONE', #174, #172, #8, .T. ) ;
#62 = LOCAL_TIME ( 9, 28, 25.00000000000000000, #51 ) ;
#63 = DATE_AND_TIME ( #113, #162 ) ;
#64 = APPROVAL ( #80, 'UNSPECIFIED' ) ;
#65 = PERSON_AND_ORGANIZATION_ROLE ( 'classification_officer' ) ;
#66 = DIRECTION ( 'NONE',  ( 0.000000000000000000, 0.000000000000000000, 1.000000000000000000 ) ) ;
#67 = APPLICATION_PROTOCOL_DEFINITION ( 'international standard', 'config_control_design', 1994, #13 ) ;
#68 = PRODUCT ( 'Q-QZWP-R4-25.4-852-M', 'Q-QZWP-R4-25.4-852-M', '', ( #52 ) ) ;
#69 = APPROVAL ( #124, 'UNSPECIFIED' ) ;
#70 = FACE_OUTER_BOUND ( 'NONE', #15, .T. ) ;
#71 = LINE ( 'NONE', #142, #58 ) ;
#72 = CC_DESIGN_PERSON_AND_ORGANIZATION_ASSIGNMENT ( #3, #112, ( #129 ) ) ;
#73 = EDGE_CURVE ( 'NONE', #88, #86, #44, .T. ) ;
#74 = PERSON_AND_ORGANIZATION_ROLE ( 'design_owner' ) ;
#75 = CC_DESIGN_SECURITY_CLASSIFICATION ( #2, ( #129 ) ) ;
#76 = ADVANCED_FACE ( 'NONE', ( #70 ), #94, .F. ) ;
#77 = PERSON_AND_ORGANIZATION_ROLE ( 'creator' ) ;
#78 = SECURITY_CLASSIFICATION_LEVEL ( 'unclassified' ) ;
#79 = PERSON_AND_ORGANIZATION ( #93, #139 ) ;
#80 = APPROVAL_STATUS ( 'not_yet_approved' ) ;
#81 = APPROVAL_DATE_TIME ( #10, #157 ) ;
#82 = AXIS2_PLACEMENT_3D ( 'NONE', #28, #173, #126 ) ;
#83 = CALENDAR_DATE ( 2020, 23, 12 ) ;
#84 = CARTESIAN_POINT ( 'NONE',  ( -3.000000000000000000, 0.000000000000000000, 0.000000000000000000 ) ) ;
#85 = DIRECTION ( 'NONE',  ( 0.000000000000000000, 0.000000000000000000, -1.000000000000000000 ) ) ;
#86 = VERTEX_POINT ( 'NONE', #170 ) ;
#87 = EDGE_LOOP ( 'NONE', ( #57, #156 ) ) ;
#88 = VERTEX_POINT ( 'NONE', #26 ) ;
#89 = APPLICATION_PROTOCOL_DEFINITION ( 'international standard', 'config_control_design', 1994, #164 ) ;
#90 = CYLINDRICAL_SURFACE ( 'NONE', #4, 15.00000000000000000 ) ;
#91 = CC_DESIGN_APPROVAL ( #69, ( #129 ) ) ;
#92 = PERSON_AND_ORGANIZATION ( #93, #139 ) ;
#93 = PERSON ( 'UNSPECIFIED', 'UNSPECIFIED', 'UNSPECIFIED', ('UNSPECIFIED'), ('UNSPECIFIED'), ('UNSPECIFIED') ) ;
#94 = PLANE ( 'NONE',  #104 ) ;
#95 = APPROVAL_PERSON_ORGANIZATION ( #50, #64, #19 ) ;
#96 = EDGE_CURVE ( 'NONE', #86, #88, #147, .T. ) ;
#97 = DIRECTION ( 'NONE',  ( -1.000000000000000000, -0.000000000000000000, -0.000000000000000000 ) ) ;
#98 = EDGE_LOOP ( 'NONE', ( #131, #53, #116, #141 ) ) ;
#99 = CARTESIAN_POINT ( 'NONE',  ( -1.614212418857619014, 1.836970198721029589E-15, -15.00000000000000000 ) ) ;
#100 = AXIS2_PLACEMENT_3D ( 'NONE', #49, #165, #160 ) ;
#101 = FACE_OUTER_BOUND ( 'NONE', #98, .T. ) ;
#102 = COORDINATED_UNIVERSAL_TIME_OFFSET ( 8, 0, .AHEAD. ) ;
#103 = DIRECTION ( 'NONE',  ( -1.000000000000000000, -0.000000000000000000, -0.000000000000000000 ) ) ;
#104 = AXIS2_PLACEMENT_3D ( 'NONE', #130, #140, #85 ) ;
#105 = APPROVAL_ROLE ( '' ) ;
#106 = LOCAL_TIME ( 9, 28, 25.00000000000000000, #24 ) ;
#107 = ORIENTED_EDGE ( 'NONE', *, *, #96, .T. ) ;
#108 = CARTESIAN_POINT ( 'NONE',  ( -1.614212418857619014, 0.000000000000000000, 0.000000000000000000 ) ) ;
#109 = CC_DESIGN_APPROVAL ( #64, ( #120 ) ) ;
#110 = DIRECTION ( 'NONE',  ( -1.000000000000000000, 0.000000000000000000, -0.000000000000000000 ) ) ;
#111 = AXIS2_PLACEMENT_3D ( 'NONE', #108, #154, #42 ) ;
#112 = PERSON_AND_ORGANIZATION_ROLE ( 'creator' ) ;
#113 = CALENDAR_DATE ( 2020, 23, 12 ) ;
#114 = APPROVAL_ROLE ( '' ) ;
#115 = DIRECTION ( 'NONE',  ( 0.000000000000000000, 0.000000000000000000, 1.000000000000000000 ) ) ;
#116 = ORIENTED_EDGE ( 'NONE', *, *, #96, .F. ) ;
#117 = DIRECTION ( 'NONE',  ( -1.000000000000000000, -0.000000000000000000, -0.000000000000000000 ) ) ;
#118 = EDGE_CURVE ( 'NONE', #172, #174, #171, .T. ) ;
#119 = ORIENTED_EDGE ( 'NONE', *, *, #73, .T. ) ;
#120 = PRODUCT_DEFINITION ( 'UNKNOWN', '', #129, #122 ) ;
#121 = APPROVAL_PERSON_ORGANIZATION ( #40, #157, #105 ) ;
#122 = DESIGN_CONTEXT ( 'detailed design', #164, 'design' ) ;
#123 = COORDINATED_UNIVERSAL_TIME_OFFSET ( 8, 0, .AHEAD. ) ;
#124 = APPROVAL_STATUS ( 'not_yet_approved' ) ;
#125 = SHAPE_DEFINITION_REPRESENTATION ( #146, #136 ) ;
#126 = DIRECTION ( 'NONE',  ( 0.000000000000000000, 0.000000000000000000, 1.000000000000000000 ) ) ;
#127 = DIRECTION ( 'NONE',  ( 0.000000000000000000, 0.000000000000000000, 1.000000000000000000 ) ) ;
#128 = AXIS2_PLACEMENT_3D ( 'NONE', #143, #132, #115 ) ;
#129 = PRODUCT_DEFINITION_FORMATION_WITH_SPECIFIED_SOURCE ( 'ANY', '', #68, .NOT_KNOWN. ) ;
#130 = CARTESIAN_POINT ( 'NONE',  ( -3.000000000000000888, 12.69999999999999929, 0.000000000000000000 ) ) ;
#131 = ORIENTED_EDGE ( 'NONE', *, *, #61, .T. ) ;
#132 = DIRECTION ( 'NONE',  ( -1.000000000000000000, -0.000000000000000000, -0.000000000000000000 ) ) ;
#133 =( NAMED_UNIT ( * ) PLANE_ANGLE_UNIT ( ) SI_UNIT ( $, .RADIAN. ) );
#134 = DATE_AND_TIME ( #6, #30 ) ;
#135 = CALENDAR_DATE ( 2020, 23, 12 ) ;
#136 = ADVANCED_BREP_SHAPE_REPRESENTATION ( 'Q-QZWP-R4-25.4-852-M', ( #16, #100 ), #158 ) ;
#137 = DATE_TIME_ROLE ( 'creation_date' ) ;
#138 = AXIS2_PLACEMENT_3D ( 'NONE', #153, #12, #38 ) ;
#139 = ORGANIZATION ( 'UNSPECIFIED', 'UNSPECIFIED', '' ) ;
#140 = DIRECTION ( 'NONE',  ( 1.000000000000000000, 0.000000000000000000, 0.000000000000000000 ) ) ;
#141 = ORIENTED_EDGE ( 'NONE', *, *, #47, .F. ) ;
#142 = CARTESIAN_POINT ( 'NONE',  ( -1.614212418857619014, 0.000000000000000000, 15.00000000000000000 ) ) ;
#143 = CARTESIAN_POINT ( 'NONE',  ( 3.000000000000000000, 0.000000000000000000, 0.000000000000000000 ) ) ;
#144 = ADVANCED_FACE ( 'NONE', ( #14 ), #55, .T. ) ;
#145 =( LENGTH_UNIT ( ) NAMED_UNIT ( * ) SI_UNIT ( .MILLI., .METRE. ) );
#146 = PRODUCT_DEFINITION_SHAPE ( 'NONE', 'NONE',  #120 ) ;
#147 = CIRCLE ( 'NONE', #18, 15.00000000000000000 ) ;
#148 = COORDINATED_UNIVERSAL_TIME_OFFSET ( 8, 0, .AHEAD. ) ;
#149 = DIRECTION ( 'NONE',  ( -0.000000000000000000, 0.000000000000000000, 1.000000000000000000 ) ) ;
#150 = CC_DESIGN_PERSON_AND_ORGANIZATION_ASSIGNMENT ( #79, #74, ( #68 ) ) ;
#151 = APPROVAL_DATE_TIME ( #134, #69 ) ;
#152 = APPROVAL_DATE_TIME ( #63, #64 ) ;
#153 = CARTESIAN_POINT ( 'NONE',  ( -3.000000000000000000, 0.000000000000000000, 0.000000000000000000 ) ) ;
#154 = DIRECTION ( 'NONE',  ( -1.000000000000000000, -0.000000000000000000, -0.000000000000000000 ) ) ;
#155 = ADVANCED_FACE ( 'NONE', ( #59 ), #31, .F. ) ;
#156 = ORIENTED_EDGE ( 'NONE', *, *, #118, .F. ) ;
#157 = APPROVAL ( #169, 'UNSPECIFIED' ) ;
#158 =( GEOMETRIC_REPRESENTATION_CONTEXT ( 3 ) GLOBAL_UNCERTAINTY_ASSIGNED_CONTEXT ( ( #9 ) ) GLOBAL_UNIT_ASSIGNED_CONTEXT ( ( #145, #133, #7 ) ) REPRESENTATION_CONTEXT ( 'NONE', 'WORKASPACE' ) );
#159 = CC_DESIGN_DATE_AND_TIME_ASSIGNMENT ( #25, #167, ( #2 ) ) ;
#160 = DIRECTION ( 'NONE',  ( 1.000000000000000000, 0.000000000000000000, 0.000000000000000000 ) ) ;
#161 = ADVANCED_FACE ( 'NONE', ( #101 ), #90, .T. ) ;
#162 = LOCAL_TIME ( 9, 28, 25.00000000000000000, #102 ) ;
#163 = PERSON_AND_ORGANIZATION ( #93, #139 ) ;
#164 = APPLICATION_CONTEXT ( 'configuration controlled 3d designs of mechanical parts and assemblies' ) ;
#165 = DIRECTION ( 'NONE',  ( 0.000000000000000000, 0.000000000000000000, 1.000000000000000000 ) ) ;
#166 = PERSON_AND_ORGANIZATION ( #93, #139 ) ;
#167 = DATE_TIME_ROLE ( 'classification_date' ) ;
#168 = ORIENTED_EDGE ( 'NONE', *, *, #73, .F. ) ;
#169 = APPROVAL_STATUS ( 'not_yet_approved' ) ;
#170 = CARTESIAN_POINT ( 'NONE',  ( -3.000000000000000000, 0.000000000000000000, 15.00000000000000000 ) ) ;
#171 = CIRCLE ( 'NONE', #82, 15.00000000000000000 ) ;
#172 = VERTEX_POINT ( 'NONE', #34 ) ;
#173 = DIRECTION ( 'NONE',  ( -1.000000000000000000, -0.000000000000000000, -0.000000000000000000 ) ) ;
#174 = VERTEX_POINT ( 'NONE', #32 ) ;
#175 = PRODUCT_RELATED_PRODUCT_CATEGORY ( 'detail', '', ( #68 ) ) ;
ENDSEC;
END-ISO-10303-21;
